0
SECTION
2
HEADER
9
$INSUNITS
70
4
9
$ACADVER
1
AC1014
9
$HANDSEED
5
FFFF
0
ENDSEC
0
SECTION
2
TABLES
0
TABLE
2
VPORT
5
8
100
AcDbSymbolTable
0
ENDTAB
0
TABLE
2
LTYPE
5
5
100
AcDbSymbolTable
0
LTYPE
5
14
100
AcDbSymbolTableRecord
100
AcDbLinetypeTableRecord
2
BYBLOCK
70
0
0
LTYPE
5
15
100
AcDbSymbolTableRecord
100
AcDbLinetypeTableRecord
2
BYLAYER
70
0
0
ENDTAB
0
TABLE
2
LAYER
5
2
100
AcDbSymbolTable
70
2
0
LAYER
5
50
100
AcDbSymbolTableRecord
100
AcDbLayerTableRecord
2
0
70
0
6
CONTINUOUS
0
ENDTAB
0
TABLE
2
STYLE
5
3
100
AcDbSymbolTable
70
1
0
STYLE
5
11
100
AcDbSymbolTableRecord
100
AcDbTextStyleTableRecord
2
STANDARD
70
0
0
ENDTAB
0
TABLE
2
VIEW
5
6
100
AcDbSymbolTable
70
0
0
ENDTAB
0
TABLE
2
UCS
5
7
100
AcDbSymbolTable
70
0
0
ENDTAB
0
TABLE
2
APPID
5
9
100
AcDbSymbolTable
70
2
0
APPID
5
12
100
AcDbSymbolTableRecord
100
AcDbRegAppTableRecord
2
ACAD
70
0
0
ENDTAB
0
TABLE
2
DIMSTYLE
5
A
100
AcDbSymbolTable
70
1
0
ENDTAB
0
TABLE
2
BLOCK_RECORD
5
1
100
AcDbSymbolTable
70
1
0
BLOCK_RECORD
5
1F
100
AcDbSymbolTableRecord
100
AcDbBlockTableRecord
2
*MODEL_SPACE
0
BLOCK_RECORD
5
1B
100
AcDbSymbolTableRecord
100
AcDbBlockTableRecord
2
*PAPER_SPACE
0
ENDTAB
0
ENDSEC
0
SECTION
2
BLOCKS
0
BLOCK
5
20
100
AcDbEntity
100
AcDbBlockBegin
2
*MODEL_SPACE
0
ENDBLK
5
21
100
AcDbEntity
100
AcDbBlockEnd
0
BLOCK
5
1C
100
AcDbEntity
100
AcDbBlockBegin
2
*PAPER_SPACE
0
ENDBLK
5
1D
100
AcDbEntity
100
AcDbBlockEnd
0
ENDSEC
0
SECTION
2
ENTITIES
0
LWPOLYLINE
5
100
100
AcDbEntity
8
0
100
AcDbPolyline
90
8
70
1
43
0.0
10
-1028.857359312881
20
3059.222290039063
42
0.99999999999999989
10
-1033.100000000001
20
3054.9796493519443
10
-1033.1000000000004
20
2963.2649307261836
42
0.99999999999999989
10
-1028.8573593128822
20
2959.0222900390631
10
-1019.142640687119
20
2959.0222900390631
42
0.9999999925494194
10
-1014.9000000000002
20
2963.2649307261827
10
-1014.9000000000003
20
3054.9796493519443
42
0.99999999999999989
10
-1019.1426406871201
20
3059.222290039063
0
LWPOLYLINE
5
101
100
AcDbEntity
8
0
100
AcDbPolyline
90
4
70
1
43
0.0
10
-1185.0000000000005
20
2633.597290039063
10
-1165.0000000000005
20
2633.597290039063
42
-0.99999999999999989
10
-1165.0000000000005
20
2608.597290039063
10
-1185.0000000000005
20
2608.597290039063
42
-0.99999999999999989
0
CIRCLE
5
102
100
AcDbEntity
8
0
100
AcDbCircle
10
-1175.0000000000002
20
3187.0972900390634
30
0
40
30.000000000000007
210
0
220
-0
230
1
0
LWPOLYLINE
5
103
100
AcDbEntity
8
0
100
AcDbPolyline
90
8
70
1
43
0.0
10
-1028.857359312882
20
3279.1722900390623
42
0.99999999999999989
10
-1033.100000000002
20
3274.9296493519437
10
-1033.1000000000004
20
3183.2149307261834
42
0.99999999999999989
10
-1028.8573593128824
20
3178.9722900390625
10
-1019.1426406871196
20
3178.9722900390625
42
0.99999999999999989
10
-1014.9000000000005
20
3183.2149307261825
10
-1014.9000000000008
20
3274.9296493519441
42
0.99999999999999989
10
-1019.1426406871208
20
3279.1722900390623
0
LWPOLYLINE
5
104
100
AcDbEntity
8
0
100
AcDbPolyline
90
40
70
1
43
0.0
10
-1414.2426406871186
20
3329.097290039063
42
0.99999999999999989
10
-1410.0000000000018
20
3333.3399307261852
10
-1410.0000000000005
20
3347.0972900390634
10
-1290.0000000000005
20
3347.0972900390634
10
-1290.0000000000002
20
3333.3399307261839
42
0.99999999999999989
10
-1285.7573593128825
20
3329.097290039063
10
-1239.2426406871195
20
3329.097290039063
42
0.99999999999999989
10
-1235.0000000000005
20
3333.339930726183
10
-1235.0000000000005
20
3347.0972900390634
10
-1115.0000000000005
20
3347.0972900390634
10
-1115.0000000000005
20
3333.3399307261834
42
0.99999999999999989
10
-1110.7573593128823
20
3329.097290039063
10
-1064.2426406871189
20
3329.097290039063
42
0.99999999999999989
10
-1060.0000000000002
20
3333.339930726183
10
-1060.0000000000002
20
3347.0972900390634
10
-940.00000000000023
20
3347.0972900390634
10
-940.00000000000045
20
3333.3399307261839
42
0.99999999999999989
10
-935.75735931288295
20
3329.097290039063
10
-910.00000000000023
20
3329.0972900390634
10
-910
20
2579.097290039063
10
-935.75735931288034
20
2579.0972900390625
42
0.99999999999999989
10
-940.00000000000011
20
2574.8546493519439
10
-940.00000000000011
20
2561.097290039063
10
-1060.0000000000002
20
2561.097290039063
10
-1060.0000000000002
20
2574.8546493519452
42
0.99999999999999989
10
-1064.2426406871207
20
2579.097290039063
10
-1110.7573593128809
20
2579.0972900390625
42
0.99999999999999989
10
-1115.0000000000005
20
2574.8546493519439
10
-1115.0000000000005
20
2561.097290039063
10
-1235.0000000000005
20
2561.097290039063
10
-1235.0000000000005
20
2574.8546493519452
42
0.99999999999999989
10
-1239.2426406871211
20
2579.097290039063
10
-1285.7573593128802
20
2579.0972900390625
42
0.99999999999999989
10
-1290.0000000000002
20
2574.8546493519443
10
-1290.0000000000002
20
2561.097290039063
10
-1410.0000000000002
20
2561.097290039063
10
-1410.0000000000002
20
2574.8546493519452
42
0.99999999999999989
10
-1414.2426406871207
20
2579.097290039063
10
-1440.0000000000002
20
2579.097290039063
10
-1440.0000000000002
20
3329.097290039063
0
LWPOLYLINE
5
105
100
AcDbEntity
8
0
100
AcDbPolyline
90
8
70
1
43
0.0
10
-1836.9000000000001
20
2704.5847518910064
42
0.99999999999999989
10
-1841.1426406871192
20
2708.8273925781259
10
-1850.8573593128808
20
2708.8273925781255
42
0.99999999999999989
10
-1855.0999999999999
20
2704.5847518910064
10
-1855.0999999999999
20
2612.8700332652452
42
0.9999999925494194
10
-1850.8573593128813
20
2608.6273925781261
10
-1841.1426406871183
20
2608.6273925781256
42
0.99999999999999989
10
-1836.8999999999996
20
2612.8700332652452
0
LWPOLYLINE
5
106
100
AcDbEntity
8
0
100
AcDbPolyline
90
28
70
1
43
0.0
10
-1505.7573593128811
20
2558.7023925781259
42
0.99999999999999989
10
-1510.0000000000002
20
2554.4597518910068
10
-1510.0000000000002
20
2540.7023925781259
10
-1635.0000000000002
20
2540.7023925781255
10
-1635.0000000000005
20
2554.4597518910064
42
0.99999999999999989
10
-1639.2426406871198
20
2558.7023925781255
10
-1750.7573593128805
20
2558.7023925781255
42
0.99999999999999989
10
-1755.0000000000002
20
2554.4597518910064
10
-1755.0000000000002
20
2540.7023925781259
10
-1880.0000000000002
20
2540.7023925781259
10
-1880.0000000000002
20
2554.4597518910068
42
0.99999999999999989
10
-1884.2426406871205
20
2558.7023925781255
10
-1940.0000000000005
20
2558.7023925781255
10
-1940.0000000000002
20
3308.7023925781255
10
-1884.2426406871195
20
3308.7023925781255
42
0.99999999999999989
10
-1880
20
3312.945033265245
10
-1880.0000000000002
20
3326.702392578125
10
-1755.0000000000002
20
3326.7023925781259
10
-1755.0000000000002
20
3312.945033265245
42
0.99999999999999989
10
-1750.7573593128814
20
3308.7023925781255
10
-1639.2426406871198
20
3308.7023925781255
42
0.99999999999999989
10
-1635.0000000000002
20
3312.945033265245
10
-1635.0000000000002
20
3326.702392578125
10
-1510.0000000000002
20
3326.702392578125
10
-1510.0000000000002
20
3312.945033265245
42
0.99999999999999989
10
-1505.7573593128814
20
3308.7023925781255
10
-1450
20
3308.702392578125
10
-1450.0000000000002
20
2558.7023925781255
0
LWPOLYLINE
5
107
100
AcDbEntity
8
0
100
AcDbPolyline
90
8
70
1
43
0.0
10
-1836.9000000000003
20
2924.5347518910057
42
0.9999999925494194
10
-1841.1426406871194
20
2928.7773925781244
10
-1850.8573593128813
20
2928.7773925781257
42
0.99999999999999989
10
-1855.1000000000001
20
2924.5347518910057
10
-1855.1000000000001
20
2832.820033265245
42
0.99999999999999989
10
-1850.8573593128813
20
2828.5773925781259
10
-1841.1426406871192
20
2828.577392578125
42
0.99999999999999989
10
-1836.9000000000003
20
2832.820033265245
0
LWPOLYLINE
5
108
100
AcDbEntity
8
0
100
AcDbPolyline
90
16
70
1
43
0.0
10
-2065.1365615855566
20
3150.006591796875
42
0.99999999999999989
10
-2060.8939208984389
20
3154.2492324839959
10
-2060.893920898438
20
3168.006591796875
10
-1990.893920898438
20
3168.006591796875
10
-1990.893920898438
20
3154.2492324839959
42
0.99999999999999989
10
-1986.6512802113202
20
3150.006591796875
10
-1960.8939208984382
20
3150.006591796875
10
-1960.893920898438
20
2400.006591796875
10
-1986.6512802113184
20
2400.0065917968745
42
0.99999999999999989
10
-1990.893920898438
20
2395.7639511097559
10
-1990.893920898438
20
2382.006591796875
10
-2060.893920898438
20
2382.006591796875
10
-2060.8939208984375
20
2395.7639511097564
42
0.99999999999999989
10
-2065.136561585558
20
2400.006591796875
10
-2090.8939208984375
20
2400.006591796875
10
-2090.893920898438
20
3150.006591796875
0
LWPOLYLINE
5
109
100
AcDbEntity
8
0
100
AcDbPolyline
90
20
70
1
43
0.0
10
-2017.893920898438
20
2860.7639511097564
42
0.99999999999999989
10
-2022.1365615855573
20
2865.0065917968759
10
-2029.6512802113184
20
2865.0065917968741
42
0.99999999999999989
10
-2033.893920898438
20
2860.7639511097559
10
-2033.893920898438
20
2840.006591796875
10
-2038.2012802113186
20
2840.006591796875
42
0.99999999999999989
10
-2042.4439208984379
20
2835.7639511097559
10
-2042.4439208984379
20
2714.249232483995
42
0.99999999999999989
10
-2038.2012802113193
20
2710.006591796875
10
-2033.8939208984377
20
2710.006591796875
10
-2033.8939208984377
20
2689.249232483995
42
0.99999999999999989
10
-2029.6512802113193
20
2685.006591796875
10
-2022.1365615855566
20
2685.006591796875
42
0.99999999999999989
10
-2017.8939208984377
20
2689.2492324839945
10
-2017.8939208984377
20
2710.006591796875
10
-2013.5865615855564
20
2710.006591796875
42
0.99999999999999989
10
-2009.3439208984378
20
2714.2492324839945
10
-2009.3439208984378
20
2835.7639511097564
42
0.99999999999999989
10
-2013.5865615855575
20
2840.006591796875
10
-2017.8939208984377
20
2840.006591796875
0
LWPOLYLINE
5
110
100
AcDbEntity
8
0
100
AcDbPolyline
90
8
70
1
43
0.0
10
-1676.6904891956935
20
2165.0288330078129
42
0.99999999999999989
10
-1680.9331298828138
20
2160.7861923206933
10
-1680.9331298828126
20
2151.0714736949326
42
0.99999999999999989
10
-1676.6904891956942
20
2146.8288330078126
10
-1594.9757705699321
20
2146.8288330078126
42
0.99999999999999989
10
-1590.7331298828126
20
2151.0714736949321
10
-1590.7331298828128
20
2160.7861923206938
42
0.99999999999999989
10
-1594.975770569933
20
2165.0288330078129
0
LINE
5
111
100
AcDbEntity
8
0
100
AcDbLine
10
-2032.7873331869375
20
2171.795127630201
30
0
11
-2028.2028653495511
21
2169.7621567351866
31
0
0
SPLINE
5
112
100
AcDbEntity
8
0
100
AcDbSpline
70
0
71
3
72
23
73
19
74
0
42
0.000000001
43
0.0000000001
44
0.0000000001
40
0.37357347499171012
40
0.37357347499171012
40
0.37357347499171012
40
0.37357347499171012
40
0.40134023606305569
40
0.40134023606305569
40
0.40134023606305569
40
0.45921249513639212
40
0.45921249513639212
40
0.45921249513639212
40
0.51526281273944829
40
0.51526281273944829
40
0.51526281273944829
40
0.56610315636418429
40
0.56610315636418429
40
0.56610315636418429
40
0.64697503584478211
40
0.64697503584478211
40
0.64697503584478211
40
0.66700223453654151
40
0.66700223453654151
40
0.66700223453654151
40
0.66700223453654151
10
-2044.2315193248678
20
1712.0022214638789
30
0
10
-2049.1865291947292
20
1720.1862616374012
30
0
10
-2053.882069336255
20
1729.2441242811974
30
0
10
-2058.1867837396148
20
1739.1378827400326
30
0
10
-2067.1587897488084
20
1759.7587304963665
30
0
10
-2074.4233184667219
20
1784.0049984546372
30
0
10
-2079.1351924073106
20
1811.1738665472399
30
0
10
-2083.6987265617468
20
1837.4874010435544
30
0
10
-2085.8584911076259
20
1866.5308860834712
30
0
10
-2085.2606350041865
20
1897.4726798241475
30
0
10
-2084.7183506597462
20
1925.5383803128084
30
0
10
-2081.9022002433958
20
1955.1717900897938
30
0
10
-2077.0294201814399
20
1985.6228234728478
30
0
10
-2069.2782750512124
20
2034.0613690497869
30
0
10
-2056.3902599269973
20
2084.5058601657374
30
0
10
-2040.5142705205164
20
2133.5887909611433
30
0
10
-2036.5827235314528
20
2145.7437404160928
30
0
10
-2032.4698692041916
20
2157.8154410568509
30
0
10
-2028.2028653495508
20
2169.7621567351866
30
0
0
LINE
5
113
100
AcDbEntity
8
0
100
AcDbLine
10
-2044.2315193248678
20
1712.0022214638789
30
0
11
-2048.5315166187011
21
1709.4451690801045
31
0
0
SPLINE
5
114
100
AcDbEntity
8
0
100
AcDbSpline
70
0
71
3
72
23
73
19
74
0
42
0.000000001
43
0.0000000001
44
0.0000000001
40
-0.66719866296066443
40
-0.66719866296066443
40
-0.66719866296066443
40
-0.66719866296066443
40
-0.63417568306944472
40
-0.63417568306944472
40
-0.63417568306944472
40
-0.55490372268576416
40
-0.55490372268576416
40
-0.55490372268576416
40
-0.5037274311673795
40
-0.5037274311673795
40
-0.5037274311673795
40
-0.44617794001826044
40
-0.44617794001826044
40
-0.44617794001826044
40
-0.38779253130704605
40
-0.38779253130704605
40
-0.38779253130704605
40
-0.37361169678681261
40
-0.37361169678681261
40
-0.37361169678681261
40
-0.37361169678681261
10
-2032.7873331869375
20
2171.795127630201
30
0
10
-2039.8573085466492
20
2152.021717891801
30
0
10
-2046.5062784880151
20
2131.9057462121186
30
0
10
-2052.6067919379957
20
2111.6388603689857
30
0
10
-2067.2511293696862
20
2062.9880185324937
30
0
10
-2078.6836351633697
20
2013.4780411998065
30
0
10
-2084.9086231090641
20
1966.2783195656784
30
0
10
-2088.9273429220393
20
1935.80718321124
30
0
10
-2090.7590302840813
20
1906.3133515728962
30
0
10
-2090.2853441672364
20
1878.5311933184278
30
0
10
-2089.752667918528
20
1847.2892056102219
30
0
10
-2086.3157450137169
20
1818.2105817821491
30
0
10
-2080.4535812482281
20
1792.1686992101268
30
0
10
-2074.5062684128588
20
1765.7485532241749
30
0
10
-2066.0707828853565
20
1742.4649929282214
30
0
10
-2056.0729168374392
20
1722.9725199572831
30
0
10
-2053.6446032037666
20
1718.2381258733394
30
0
10
-2051.1249637099722
20
1713.727781206255
30
0
10
-2048.5315166187011
20
1709.4451690801047
30
0
0
LINE
5
115
100
AcDbEntity
8
0
100
AcDbLine
10
-1563.4633944160751
20
2169.7621567351866
30
0
11
-1558.8789265786886
21
2171.795127630201
31
0
0
SPLINE
5
116
100
AcDbEntity
8
0
100
AcDbSpline
70
0
71
3
72
23
73
19
74
0
42
0.000000001
43
0.0000000001
44
0.0000000001
40
0.37361169678681261
40
0.37361169678681261
40
0.37361169678681261
40
0.37361169678681261
40
0.38779253130704605
40
0.38779253130704605
40
0.38779253130704605
40
0.44617794001826044
40
0.44617794001826044
40
0.44617794001826044
40
0.5037274311673795
40
0.5037274311673795
40
0.5037274311673795
40
0.55490372268576416
40
0.55490372268576416
40
0.55490372268576416
40
0.63417568306944472
40
0.63417568306944472
40
0.63417568306944472
40
0.66719866296066443
40
0.66719866296066443
40
0.66719866296066443
40
0.66719866296066443
10
-1543.1347431469246
20
1709.4451690801047
30
0
10
-1540.5412960556534
20
1713.727781206255
30
0
10
-1538.0216565618591
20
1718.2381258733399
30
0
10
-1535.5933429281865
20
1722.9725199572831
30
0
10
-1525.595476880269
20
1742.4649929282216
30
0
10
-1517.1599913527671
20
1765.7485532241749
30
0
10
-1511.2126785173975
20
1792.1686992101268
30
0
10
-1505.3505147519086
20
1818.2105817821493
30
0
10
-1501.9135918470977
20
1847.2892056102219
30
0
10
-1501.3809155983893
20
1878.531193318428
30
0
10
-1500.9072294815442
20
1906.3133515728962
30
0
10
-1502.7389168435864
20
1935.80718321124
30
0
10
-1506.7576366565615
20
1966.2783195656784
30
0
10
-1512.9826246022558
20
2013.4780411998067
30
0
10
-1524.4151303959395
20
2062.9880185324937
30
0
10
-1539.0594678276304
20
2111.6388603689857
30
0
10
-1545.1599812776108
20
2131.9057462121186
30
0
10
-1551.8089512189763
20
2152.021717891801
30
0
10
-1558.8789265786884
20
2171.795127630201
30
0
0
LINE
5
117
100
AcDbEntity
8
0
100
AcDbLine
10
-1543.1347431469246
20
1709.4451690801047
30
0
11
-1547.4347404407631
21
1712.00222146387
31
0
0
SPLINE
5
118
100
AcDbEntity
8
0
100
AcDbSpline
70
0
71
3
72
23
73
19
74
0
42
0.000000001
43
0.0000000001
44
0.0000000001
40
-0.66700223453654151
40
-0.66700223453654151
40
-0.66700223453654151
40
-0.66700223453654151
40
-0.64697503584478211
40
-0.64697503584478211
40
-0.64697503584478211
40
-0.56610315636418429
40
-0.56610315636418429
40
-0.56610315636418429
40
-0.51526281273944829
40
-0.51526281273944829
40
-0.51526281273944829
40
-0.45921249513639212
40
-0.45921249513639212
40
-0.45921249513639212
40
-0.40134023606305569
40
-0.40134023606305569
40
-0.40134023606305569
40
-0.37357347499171012
40
-0.37357347499171012
40
-0.37357347499171012
40
-0.37357347499171012
10
-1563.4633944160751
20
2169.7621567351866
30
0
10
-1559.1963905614341
20
2157.8154410568509
30
0
10
-1555.0835362341729
20
2145.7437404160933
30
0
10
-1551.1519892451092
20
2133.5887909611433
30
0
10
-1535.2759998386284
20
2084.5058601657374
30
0
10
-1522.3879847144135
20
2034.0613690497869
30
0
10
-1514.636839584186
20
1985.6228234728483
30
0
10
-1509.7640595222297
20
1955.1717900897941
30
0
10
-1506.9479091058793
20
1925.5383803128086
30
0
10
-1506.4056247614394
20
1897.4726798241477
30
0
10
-1505.8077686579995
20
1866.5308860834712
30
0
10
-1507.9675332038789
20
1837.4874010435547
30
0
10
-1512.5310673583153
20
1811.1738665472399
30
0
10
-1517.2429412989038
20
1784.0049984546374
30
0
10
-1524.5074700168173
20
1759.7587304963668
30
0
10
-1533.4794760260106
20
1739.1378827400329
30
0
10
-1537.7841904293705
20
1729.2441242811974
30
0
10
-1542.4797305708964
20
1720.1862616374015
30
0
10
-1547.4347404407579
20
1712.0022214638789
30
0
0
SPLINE
5
119
100
AcDbEntity
8
0
100
AcDbSpline
70
4
71
5
72
26
73
20
74
0
42
0.000000001
43
0.0000000001
44
0.0000000001
40
0
40
0
40
0
40
0
40
0
40
0
40
0.066666666666666666
40
0.13333333333333333
40
0.20000000000000001
40
0.26666666666666666
40
0.33333333333333331
40
0.39999999999999997
40
0.46666666666666662
40
0.53333333333333333
40
0.59999999999999998
40
0.66666666666666663
40
0.73333333333333328
40
0.79999999999999993
40
0.86666666666666659
40
0.93333333333333324
40
1
40
1
40
1
40
1
40
1
40
1
41
1
41
1
41
1
41
1
41
1
41
1
41
1
41
1
41
1
41
1
41
1
41
1
41
1
41
1
41
1
41
1
41
1
41
1
41
1
41
1
10
-1795.8331298828127
20
1695.0934907055707
30
0
10
-1809.7821755373288
20
1695.0934907055707
30
0
10
-1835.5771088480444
20
1692.5358130142401
30
0
10
-1867.9517419400877
20
1681.0178810702655
30
0
10
-1901.7279466981549
20
1655.1169296526546
30
0
10
-1941.7511684133087
20
1627.656076359408
30
0
10
-1989.8159603457154
20
1626.8965854499013
30
0
10
-2039.7117389484208
20
1657.9984178936343
30
0
10
-2082.6464922366818
20
1721.3013183855564
30
0
10
-2109.2811541799952
20
1813.129837363158
30
0
10
-2113.0120626762464
20
1926.5484517331709
30
0
10
-2091.4524465903874
20
2052.3874015303654
30
0
10
-2052.5921284504675
20
2179.1268240931627
30
0
10
-2003.7398357531745
20
2296.8708052672837
30
0
10
-1950.1359541566862
20
2397.475073430232
30
0
10
-1895.8363983779552
20
2474.3711779090995
30
0
10
-1853.995830059544
20
2512.992460778667
30
0
10
-1824.2289807054722
20
2527.6580101426507
30
0
10
-1805.1677971595627
20
2530.9237897933972
30
0
10
-1795.8331298828127
20
2530.9288330078125
30
0
0
SPLINE
5
120
100
AcDbEntity
8
0
100
AcDbSpline
70
4
71
5
72
26
73
20
74
0
42
0.000000001
43
0.0000000001
44
0.0000000001
40
-1
40
-1
40
-1
40
-1
40
-1
40
-1
40
-0.93333333333333324
40
-0.86666666666666659
40
-0.79999999999999993
40
-0.73333333333333328
40
-0.66666666666666663
40
-0.59999999999999998
40
-0.53333333333333333
40
-0.46666666666666662
40
-0.39999999999999997
40
-0.33333333333333331
40
-0.26666666666666666
40
-0.20000000000000001
40
-0.13333333333333333
40
-0.066666666666666666
40
0
40
0
40
0
40
0
40
0
40
0
41
1
41
1
41
1
41
1
41
1
41
1
41
1
41
1
41
1
41
1
41
1
41
1
41
1
41
1
41
1
41
1
41
1
41
1
41
1
41
1
10
-1795.8331298828127
20
2530.9288330078125
30
0
10
-1786.4984626060632
20
2530.9237897933972
30
0
10
-1767.4372790601537
20
2527.6580101426507
30
0
10
-1737.6704297060817
20
2512.992460778667
30
0
10
-1695.8298613876705
20
2474.3711779090995
30
0
10
-1641.5303056089397
20
2397.475073430232
30
0
10
-1587.926424012451
20
2296.8708052672837
30
0
10
-1539.0741313151582
20
2179.1268240931631
30
0
10
-1500.2138131752381
20
2052.3874015303654
30
0
10
-1478.6541970893791
20
1926.5484517331709
30
0
10
-1482.3851055856303
20
1813.1298373631582
30
0
10
-1509.0197675289435
20
1721.3013183855564
30
0
10
-1551.9545208172044
20
1657.9984178936345
30
0
10
-1601.8502994199102
20
1626.8965854499013
30
0
10
-1649.9150913523167
20
1627.656076359408
30
0
10
-1689.9383130674705
20
1655.1169296526546
30
0
10
-1723.7145178255375
20
1681.0178810702655
30
0
10
-1756.0891509175808
20
1692.5358130142401
30
0
10
-1781.8840842282966
20
1695.0934907055707
30
0
10
-1795.8331298828127
20
1695.0934907055707
30
0
0
LWPOLYLINE
5
121
100
AcDbEntity
8
0
100
AcDbPolyline
90
8
70
1
43
0.0
10
-1910.7331298828135
20
2160.7861923206942
42
0.9999999925494194
10
-1914.9757705699326
20
2165.0288330078129
10
-1996.6904891956938
20
2165.0288330078129
42
0.99999999999999989
10
-2000.9331298828133
20
2160.7861923206933
10
-2000.9331298828133
20
2151.071473694933
42
0.99999999999999989
10
-1996.6904891956951
20
2146.8288330078126
10
-1914.9757705699326
20
2146.8288330078126
42
0.99999999999999989
10
-1910.733129882813
20
2151.0714736949317
0
LWPOLYLINE
5
122
100
AcDbEntity
8
0
100
AcDbPolyline
90
8
70
1
43
0.0
10
-1754.9757705699324
20
2146.8288330078126
42
0.9999999925494194
10
-1750.7331298828137
20
2151.0714736949321
10
-1750.733129882813
20
2160.7861923206942
42
0.99999999999999989
10
-1754.9757705699335
20
2165.0288330078129
10
-1836.690489195694
20
2165.0288330078129
42
0.99999999999999989
10
-1840.9331298828129
20
2160.7861923206933
10
-1840.9331298828129
20
2151.0714736949326
42
0.99999999999999989
10
-1836.6904891956947
20
2146.8288330078126
0
LWPOLYLINE
5
123
100
AcDbEntity
8
0
100
AcDbPolyline
90
8
70
1
43
0.0
10
-1676.6904891956938
20
2043.0288330078129
42
0.99999999999999989
10
-1680.9331298828135
20
2038.7861923206942
10
-1680.9331298828129
20
2029.0714736949326
42
0.99999999999999989
10
-1676.6904891956942
20
2024.8288330078126
10
-1564.9757705699324
20
2024.8288330078126
42
0.99999999999999989
10
-1560.7331298828128
20
2029.0714736949315
10
-1560.7331298828126
20
2038.7861923206942
42
0.99999999999999989
10
-1564.9757705699326
20
2043.0288330078129
0
LWPOLYLINE
5
124
100
AcDbEntity
8
0
100
AcDbPolyline
90
8
70
1
43
0.0
10
-1855.9331298828126
20
2029.071473694933
42
0.99999999999999989
10
-1851.6904891956947
20
2024.8288330078121
10
-1739.9757705699321
20
2024.8288330078126
42
0.99999999999999989
10
-1735.7331298828126
20
2029.0714736949321
10
-1735.7331298828126
20
2038.7861923206938
42
0.99999999999999989
10
-1739.9757705699324
20
2043.0288330078124
10
-1851.6904891956938
20
2043.0288330078124
42
0.99999999999999989
10
-1855.9331298828126
20
2038.7861923206926
0
LWPOLYLINE
5
125
100
AcDbEntity
8
0
100
AcDbPolyline
90
8
70
1
43
0.0
10
-2026.6904891956938
20
2043.0288330078124
42
0.99999999999999989
10
-2030.9331298828142
20
2038.7861923206945
10
-2030.9331298828129
20
2029.071473694933
42
0.99999999999999989
10
-2026.6904891956949
20
2024.8288330078126
10
-1914.9757705699326
20
2024.8288330078128
42
0.99999999999999989
10
-1910.7331298828128
20
2029.0714736949315
10
-1910.7331298828128
20
2038.7861923206942
42
0.99999999999999989
10
-1914.975770569933
20
2043.0288330078124
0
LWPOLYLINE
5
126
100
AcDbEntity
8
0
100
AcDbPolyline
90
8
70
1
43
0.0
10
-1610.7331298828128
20
1720.7861923206942
42
0.99999999999999989
10
-1614.9757705699337
20
1725.0288330078117
10
-1731.6904891956938
20
1725.0288330078126
42
0.99999999999999989
10
-1735.9331298828126
20
1720.7861923206929
10
-1735.9331298828129
20
1711.0714736949326
42
0.99999999999999989
10
-1731.6904891956942
20
1706.8288330078126
10
-1614.975770569933
20
1706.8288330078126
42
0.99999999999999989
10
-1610.7331298828128
20
1711.0714736949312
0
LWPOLYLINE
5
127
100
AcDbEntity
8
0
100
AcDbPolyline
90
8
70
1
43
0.0
10
-1859.9757705699326
20
1706.8288330078126
42
0.99999999999999989
10
-1855.733129882814
20
1711.0714736949326
10
-1855.7331298828126
20
1720.7861923206942
42
0.99999999999999989
10
-1859.975770569933
20
1725.0288330078124
10
-1976.6904891956938
20
1725.0288330078124
42
0.99999999999999989
10
-1980.9331298828126
20
1720.7861923206929
10
-1980.9331298828126
20
1711.071473694933
42
0.99999999999999989
10
-1976.6904891956947
20
1706.8288330078126
0
LWPOLYLINE
5
128
100
AcDbEntity
8
0
100
AcDbPolyline
90
8
70
1
43
0.0
10
-1830.9331298828129
20
2473.071473694933
42
0.99999999999999989
10
-1826.6904891956942
20
2468.828833007813
10
-1764.9757705699326
20
2468.828833007813
42
0.99999999999999989
10
-1760.7331298828128
20
2473.0714736949317
10
-1760.7331298828128
20
2482.7861923206942
42
0.99999999999999989
10
-1764.975770569933
20
2487.0288330078124
10
-1826.690489195694
20
2487.0288330078129
42
0.99999999999999989
10
-1830.9331298828129
20
2482.7861923206929
0
LWPOLYLINE
5
129
100
AcDbEntity
8
0
100
AcDbPolyline
90
8
70
1
43
0.0
10
-1191.6678176890728
20
1695.1328491210938
42
0.99999999999999989
10
-1187.4251770019537
20
1699.3754898082136
10
-1187.4251770019534
20
1709.0902084339748
42
0.99999999999999989
10
-1191.6678176890728
20
1713.3328491210937
10
-1253.3825363148344
20
1713.3328491210941
42
1.0000000074505806
10
-1257.6251770019535
20
1709.0902084339746
10
-1257.6251770019535
20
1699.3754898082136
42
0.99999999999999989
10
-1253.3825363148344
20
1695.1328491210938
0
LWPOLYLINE
5
130
100
AcDbEntity
8
0
100
AcDbPolyline
90
8
70
1
43
0.0
10
-1382.6251770019539
20
2361.3504898082138
42
0.99999999999999989
10
-1378.3825363148353
20
2357.1078491210938
10
-1368.6678176890728
20
2357.1078491210938
42
0.99999999999999989
10
-1364.4251770019537
20
2361.3504898082133
10
-1364.4251770019539
20
2433.0652084339754
42
0.99999999999999989
10
-1368.6678176890741
20
2437.307849121094
10
-1378.3825363148346
20
2437.307849121094
42
0.99999999999999989
10
-1382.6251770019539
20
2433.0652084339745
0
LWPOLYLINE
5
131
100
AcDbEntity
8
0
100
AcDbPolyline
90
8
70
1
43
0.0
10
-1368.6678176890732
20
2177.1578491210944
42
0.99999999999999989
10
-1364.4251770019539
20
2181.4004898082135
10
-1364.4251770019539
20
2253.1152084339751
42
0.99999999999999989
10
-1368.6678176890734
20
2257.3578491210942
10
-1378.3825363148344
20
2257.3578491210942
42
0.99999999999999989
10
-1382.6251770019535
20
2253.1152084339747
10
-1382.6251770019535
20
2181.4004898082139
42
0.99999999999999989
10
-1378.3825363148346
20
2177.1578491210939
0
LWPOLYLINE
5
132
100
AcDbEntity
8
0
100
AcDbPolyline
90
8
70
1
43
0.0
10
-1427.6251770019539
20
2021.3754898082138
42
0.99999999999999989
10
-1423.3825363148353
20
2017.1328491210941
10
-1341.667817689073
20
2017.1328491210941
42
0.99999999999999989
10
-1337.4251770019537
20
2021.3754898082132
10
-1337.4251770019534
20
2031.0902084339752
42
0.99999999999999989
10
-1341.6678176890737
20
2035.3328491210939
10
-1423.3825363148346
20
2035.3328491210939
42
0.99999999999999989
10
-1427.6251770019539
20
2031.0902084339748
0
LWPOLYLINE
5
133
100
AcDbEntity
8
0
100
AcDbPolyline
90
8
70
1
43
0.0
10
-1457.6251770019539
20
2143.3754898082138
42
0.99999999999999989
10
-1453.3825363148342
20
2139.1328491210943
10
-1341.6678176890728
20
2139.1328491210938
42
0.99999999999999989
10
-1337.4251770019534
20
2143.3754898082134
10
-1337.4251770019534
20
2153.090208433975
42
0.99999999999999989
10
-1341.6678176890732
20
2157.3328491210941
10
-1453.3825363148344
20
2157.3328491210941
42
0.99999999999999989
10
-1457.6251770019535
20
2153.090208433975
0
LWPOLYLINE
5
134
100
AcDbEntity
8
0
100
AcDbPolyline
90
8
70
1
43
0.0
10
-1267.6251770019535
20
2021.3754898082141
42
0.99999999999999989
10
-1263.3825363148349
20
2017.1328491210938
10
-1181.667817689073
20
2017.1328491210941
42
0.99999999999999989
10
-1177.4251770019534
20
2021.3754898082132
10
-1177.4251770019534
20
2031.0902084339752
42
0.99999999999999989
10
-1181.6678176890732
20
2035.3328491210939
10
-1263.3825363148344
20
2035.3328491210941
42
0.99999999999999989
10
-1267.6251770019535
20
2031.0902084339746
0
LWPOLYLINE
5
135
100
AcDbEntity
8
0
100
AcDbPolyline
90
8
70
1
43
0.0
10
-1282.6251770019533
20
2143.3754898082138
42
0.99999999999999989
10
-1278.3825363148346
20
2139.1328491210934
10
-1166.6678176890728
20
2139.1328491210938
42
0.99999999999999989
10
-1162.4251770019532
20
2143.3754898082134
10
-1162.4251770019534
20
2153.090208433975
42
0.99999999999999989
10
-1166.6678176890732
20
2157.3328491210941
10
-1278.3825363148339
20
2157.3328491210941
42
1.0000000074505806
10
-1282.6251770019533
20
2153.090208433975
0
LINE
5
136
100
AcDbEntity
8
0
100
AcDbLine
10
-1454.8949124686915
20
2012.3995253937201
30
0
11
-1459.4793803060779
21
2010.3665544987057
31
0
0
SPLINE
5
137
100
AcDbEntity
8
0
100
AcDbSpline
70
0
71
3
72
23
73
19
74
0
42
0.000000001
43
0.0000000001
44
0.0000000001
40
-0.66719866296066443
40
-0.66719866296066443
40
-0.66719866296066443
40
-0.66719866296066443
40
-0.63417568306944472
40
-0.63417568306944472
40
-0.63417568306944472
40
-0.55490372268576416
40
-0.55490372268576416
40
-0.55490372268576416
40
-0.5037274311673795
40
-0.5037274311673795
40
-0.5037274311673795
40
-0.44617794001826044
40
-0.44617794001826044
40
-0.44617794001826044
40
-0.38779253130704605
40
-0.38779253130704605
40
-0.38779253130704605
40
-0.37361169678681261
40
-0.37361169678681261
40
-0.37361169678681261
40
-0.37361169678681261
10
-1459.4793803060779
20
2010.3665544987057
30
0
10
-1466.5493556657898
20
2030.1399642371055
30
0
10
-1473.1983256071558
20
2050.2559359167881
30
0
10
-1479.2988390571361
20
2070.5228217599206
30
0
10
-1493.9431764888266
20
2119.173663596413
30
0
10
-1505.3756822825105
20
2168.6836409291
30
0
10
-1511.6006702282048
20
2215.8833625632283
30
0
10
-1515.6193900411799
20
2246.3544989176667
30
0
10
-1517.4510774032224
20
2275.8483305560103
30
0
10
-1516.9773912863773
20
2303.6304888104787
30
0
10
-1516.4447150376686
20
2334.8724765186848
30
0
10
-1513.0077921328575
20
2363.9511003467574
30
0
10
-1507.1456283673688
20
2389.9929829187799
30
0
10
-1501.1983155319992
20
2416.4131289047318
30
0
10
-1492.7628300044976
20
2439.6966892006849
30
0
10
-1482.7649639565798
20
2459.1891621716236
30
0
10
-1480.3366503229074
20
2463.9235562555668
30
0
10
-1477.8170108291126
20
2468.4339009226514
30
0
10
-1475.2235637378417
20
2472.716513048802
30
0
0
LINE
5
138
100
AcDbEntity
8
0
100
AcDbLine
10
-1475.2235637378417
20
2472.716513048802
30
0
11
-1470.923566444003
21
2470.1594606650365
31
0
0
SPLINE
5
139
100
AcDbEntity
8
0
100
AcDbSpline
70
0
71
3
72
23
73
19
74
0
42
0.000000001
43
0.0000000001
44
0.0000000001
40
0.37357347499171012
40
0.37357347499171012
40
0.37357347499171012
40
0.37357347499171012
40
0.40134023606305569
40
0.40134023606305569
40
0.40134023606305569
40
0.45921249513639212
40
0.45921249513639212
40
0.45921249513639212
40
0.51526281273944829
40
0.51526281273944829
40
0.51526281273944829
40
0.56610315636418429
40
0.56610315636418429
40
0.56610315636418429
40
0.64697503584478211
40
0.64697503584478211
40
0.64697503584478211
40
0.66700223453654151
40
0.66700223453654151
40
0.66700223453654151
40
0.66700223453654151
10
-1470.9235664440084
20
2470.1594606650274
30
0
10
-1475.8785763138701
20
2461.9754204915052
30
0
10
-1480.5741164553958
20
2452.9175578477088
30
0
10
-1484.8788308587555
20
2443.0237993888741
30
0
10
-1493.8508368679493
20
2422.40295163254
30
0
10
-1501.1153655858625
20
2398.1566836742691
30
0
10
-1505.827239526451
20
2370.9878155816668
30
0
10
-1510.3907736808874
20
2344.674281085352
30
0
10
-1512.5505382267668
20
2315.6307960454355
30
0
10
-1511.9526821233271
20
2284.689002304759
30
0
10
-1511.4103977788868
20
2256.6233018160979
30
0
10
-1508.5942473625366
20
2226.9898920391124
30
0
10
-1503.7214673005806
20
2196.5388586560584
30
0
10
-1495.970322170353
20
2148.1003130791196
30
0
10
-1483.0823070461381
20
2097.6558219631688
30
0
10
-1467.2063176396571
20
2048.5728911677634
30
0
10
-1463.2747706505934
20
2036.4179417128134
30
0
10
-1459.1619163233322
20
2024.3462410720556
30
0
10
-1454.8949124686915
20
2012.3995253937201
30
0
0
LINE
5
140
100
AcDbEntity
8
0
100
AcDbLine
10
-985.570973697829
20
2010.3665544987057
30
0
11
-990.15544153521557
21
2012.3995253937201
31
0
0
SPLINE
5
141
100
AcDbEntity
8
0
100
AcDbSpline
70
0
71
3
72
23
73
19
74
0
42
0.000000001
43
0.0000000001
44
0.0000000001
40
-0.66700223453654151
40
-0.66700223453654151
40
-0.66700223453654151
40
-0.66700223453654151
40
-0.64697503584478211
40
-0.64697503584478211
40
-0.64697503584478211
40
-0.56610315636418429
40
-0.56610315636418429
40
-0.56610315636418429
40
-0.51526281273944829
40
-0.51526281273944829
40
-0.51526281273944829
40
-0.45921249513639212
40
-0.45921249513639212
40
-0.45921249513639212
40
-0.40134023606305569
40
-0.40134023606305569
40
-0.40134023606305569
40
-0.37357347499171012
40
-0.37357347499171012
40
-0.37357347499171012
40
-0.37357347499171012
10
-990.15544153521557
20
2012.3995253937201
30
0
10
-985.88843768057473
20
2024.3462410720558
30
0
10
-981.77558335331355
20
2036.4179417128137
30
0
10
-977.84403636424997
20
2048.5728911677634
30
0
10
-961.96804695776905
20
2097.6558219631693
30
0
10
-949.08003183355413
20
2148.1003130791196
30
0
10
-941.32888670332648
20
2196.5388586560589
30
0
10
-936.45610664137041
20
2226.9898920391129
30
0
10
-933.63995622502
20
2256.6233018160983
30
0
10
-933.09767188058004
20
2284.689002304759
30
0
10
-932.49981577714027
20
2315.6307960454355
30
0
10
-934.65958032301978
20
2344.674281085352
30
0
10
-939.22311447745619
20
2370.9878155816668
30
0
10
-943.93498841804467
20
2398.1566836742695
30
0
10
-951.19951713595788
20
2422.40295163254
30
0
10
-960.17152314515158
20
2443.0237993888741
30
0
10
-964.47623754851134
20
2452.9175578477093
30
0
10
-969.17177769003717
20
2461.9754204915052
30
0
10
-974.12678755989873
20
2470.1594606650278
30
0
0
LINE
5
142
100
AcDbEntity
8
0
100
AcDbLine
10
-974.12678755989884
20
2470.1594606650278
30
0
11
-969.82679026606547
21
2472.716513048802
31
0
0
SPLINE
5
143
100
AcDbEntity
8
0
100
AcDbSpline
70
0
71
3
72
23
73
19
74
0
42
0.000000001
43
0.0000000001
44
0.0000000001
40
0.37361169678681261
40
0.37361169678681261
40
0.37361169678681261
40
0.37361169678681261
40
0.38779253130704605
40
0.38779253130704605
40
0.38779253130704605
40
0.44617794001826044
40
0.44617794001826044
40
0.44617794001826044
40
0.5037274311673795
40
0.5037274311673795
40
0.5037274311673795
40
0.55490372268576416
40
0.55490372268576416
40
0.55490372268576416
40
0.63417568306944472
40
0.63417568306944472
40
0.63417568306944472
40
0.66719866296066443
40
0.66719866296066443
40
0.66719866296066443
40
0.66719866296066443
10
-969.82679026606547
20
2472.716513048802
30
0
10
-967.2333431747943
20
2468.4339009226514
30
0
10
-964.71370368099986
20
2463.9235562555673
30
0
10
-962.28539004732738
20
2459.1891621716236
30
0
10
-952.28752399940959
20
2439.6966892006849
30
0
10
-943.8520384719078
20
2416.4131289047318
30
0
10
-937.90472563653839
20
2389.9929829187799
30
0
10
-932.04256187104966
20
2363.9511003467574
30
0
10
-928.60563896623842
20
2334.8724765186848
30
0
10
-928.07296271752989
20
2303.6304888104787
30
0
10
-927.59927660068479
20
2275.8483305560103
30
0
10
-929.43096396272722
20
2246.3544989176667
30
0
10
-933.44968377570228
20
2215.8833625632283
30
0
10
-939.67467172139652
20
2168.6836409291
30
0
10
-951.10717751508014
20
2119.173663596413
30
0
10
-965.75151494677084
20
2070.5228217599206
30
0
10
-971.85202839675128
20
2050.2559359167881
30
0
10
-978.50099833811691
20
2030.1399642371055
30
0
10
-985.570973697829
20
2010.3665544987057
30
0
0
SPLINE
5
144
100
AcDbEntity
8
0
100
AcDbSpline
70
4
71
5
72
26
73
20
74
0
42
0.000000001
43
0.0000000001
44
0.0000000001
40
0
40
0
40
0
40
0
40
0
40
0
40
0.066666666666666666
40
0.13333333333333333
40
0.20000000000000001
40
0.26666666666666666
40
0.33333333333333331
40
0.39999999999999997
40
0.46666666666666662
40
0.53333333333333333
40
0.59999999999999998
40
0.66666666666666663
40
0.73333333333333328
40
0.79999999999999993
40
0.86666666666666659
40
0.93333333333333324
40
1
40
1
40
1
40
1
40
1
40
1
41
1
41
1
41
1
41
1
41
1
41
1
41
1
41
1
41
1
41
1
41
1
41
1
41
1
41
1
41
1
41
1
41
1
41
1
41
1
41
1
10
-1222.5251770019536
20
2487.068191423336
30
0
10
-1236.4742226564697
20
2487.068191423336
30
0
10
-1262.2691559671853
20
2489.6258691146663
30
0
10
-1294.6437890592288
20
2501.1438010586412
30
0
10
-1328.4199938172958
20
2527.0447524762521
30
0
10
-1368.4432155324496
20
2554.5056057694992
30
0
10
-1416.5080074648561
20
2555.2650966790052
30
0
10
-1466.4037860675617
20
2524.163264235272
30
0
10
-1509.3385393558228
20
2460.8603637433503
30
0
10
-1535.9732012991358
20
2369.0318447657482
30
0
10
-1539.704109795387
20
2255.6132303957356
30
0
10
-1518.1444937095282
20
2129.7742805985408
30
0
10
-1479.2841755696079
20
2003.034858035744
30
0
10
-1430.4318828723151
20
1885.2908768616228
30
0
10
-1376.8280012758264
20
1784.6866086986745
30
0
10
-1322.5284454970958
20
1707.7905042198072
30
0
10
-1280.6878771786844
20
1669.1692213502397
30
0
10
-1250.9210278246123
20
1654.503671986256
30
0
10
-1231.8598442787031
20
1651.2378923355091
30
0
10
-1222.5251770019534
20
1651.232849121094
30
0
0
SPLINE
5
145
100
AcDbEntity
8
0
100
AcDbSpline
70
4
71
5
72
26
73
20
74
0
42
0.000000001
43
0.0000000001
44
0.0000000001
40
-1
40
-1
40
-1
40
-1
40
-1
40
-1
40
-0.93333333333333324
40
-0.86666666666666659
40
-0.79999999999999993
40
-0.73333333333333328
40
-0.66666666666666663
40
-0.59999999999999998
40
-0.53333333333333333
40
-0.46666666666666662
40
-0.39999999999999997
40
-0.33333333333333331
40
-0.26666666666666666
40
-0.20000000000000001
40
-0.13333333333333333
40
-0.066666666666666666
40
0
40
0
40
0
40
0
40
0
40
0
41
1
41
1
41
1
41
1
41
1
41
1
41
1
41
1
41
1
41
1
41
1
41
1
41
1
41
1
41
1
41
1
41
1
41
1
41
1
41
1
10
-1222.5251770019534
20
1651.232849121094
30
0
10
-1213.1905097252036
20
1651.2378923355091
30
0
10
-1194.1293261792944
20
1654.503671986256
30
0
10
-1164.3624768252221
20
1669.1692213502397
30
0
10
-1122.5219085068111
20
1707.7905042198072
30
0
10
-1068.2223527280801
20
1784.6866086986745
30
0
10
-1014.6184711315916
20
1885.290876861623
30
0
10
-965.76617843429869
20
2003.034858035744
30
0
10
-926.90586029437884
20
2129.7742805985408
30
0
10
-905.34624420851969
20
2255.6132303957361
30
0
10
-909.07715270477115
20
2369.0318447657487
30
0
10
-935.71181464808433
20
2460.8603637433503
30
0
10
-978.64656793634538
20
2524.1632642352724
30
0
10
-1028.5423465390509
20
2555.2650966790052
30
0
10
-1076.6071384714573
20
2554.5056057694992
30
0
10
-1116.6303601866111
20
2527.0447524762521
30
0
10
-1150.4065649446784
20
2501.1438010586412
30
0
10
-1182.7811980367217
20
2489.6258691146663
30
0
10
-1208.5761313474372
20
2487.068191423336
30
0
10
-1222.5251770019536
20
2487.068191423336
30
0
0
LWPOLYLINE
5
146
100
AcDbEntity
8
0
100
AcDbPolyline
90
8
70
1
43
0.0
10
-1403.3825363148339
20
2475.3328491210941
42
0.99999999999999989
10
-1407.6251770019542
20
2471.0902084339755
10
-1407.6251770019535
20
2461.3754898082138
42
0.99999999999999989
10
-1403.3825363148344
20
2457.1328491210943
10
-1286.6678176890728
20
2457.1328491210938
42
0.99999999999999989
10
-1282.4251770019534
20
2461.3754898082138
10
-1282.4251770019534
20
2471.0902084339755
42
0.99999999999999989
10
-1286.6678176890737
20
2475.3328491210941
0
LWPOLYLINE
5
147
100
AcDbEntity
8
0
100
AcDbPolyline
90
8
70
1
43
0.0
10
-1037.4251770019537
20
2471.0902084339755
42
0.99999999999999989
10
-1041.6678176890732
20
2475.332849121095
10
-1158.3825363148339
20
2475.3328491210941
42
0.99999999999999989
10
-1162.6251770019535
20
2471.090208433975
10
-1162.6251770019535
20
2461.3754898082143
42
0.99999999999999989
10
-1158.3825363148349
20
2457.1328491210943
10
-1041.6678176890725
20
2457.1328491210938
42
0.99999999999999989
10
-1037.4251770019537
20
2461.3754898082138
0
LWPOLYLINE
5
148
100
AcDbEntity
8
0
100
AcDbPolyline
90
8
70
1
43
0.0
10
-1103.3825363148342
20
2035.3328491210939
42
0.99999999999999989
10
-1107.6251770019539
20
2031.0902084339752
10
-1107.6251770019533
20
2021.3754898082138
42
0.99999999999999989
10
-1103.3825363148344
20
2017.1328491210941
10
-1021.6678176890725
20
2017.1328491210943
42
0.9999999925494194
10
-1017.4251770019532
20
2021.3754898082134
10
-1017.4251770019532
20
2031.0902084339752
42
0.99999999999999989
10
-1021.667817689073
20
2035.3328491210939
0
LWPOLYLINE
5
149
100
AcDbEntity
8
0
100
AcDbPolyline
90
8
70
1
43
0.0
10
-1103.3825363148339
20
2157.3328491210937
42
0.99999999999999989
10
-1107.6251770019544
20
2153.0902084339759
10
-1107.6251770019535
20
2143.3754898082143
42
0.99999999999999989
10
-1103.3825363148349
20
2139.1328491210943
10
-991.66781768907276
20
2139.1328491210938
42
0.99999999999999989
10
-987.42517700195333
20
2143.3754898082134
10
-987.42517700195344
20
2153.090208433975
42
0.99999999999999989
10
-991.66781768907322
20
2157.3328491210941
0
LWPOLYLINE
5
150
100
AcDbEntity
8
0
100
AcDbPolyline
90
40
70
1
43
0.0
10
-1058.2895309437399
20
1479.9500976562501
42
0.99999999999999989
10
-1062.5321716308601
20
1475.7074569691315
10
-1062.5321716308597
20
1364.2427383433692
42
0.9999999925494194
10
-1058.2895309437404
20
1360.0000976562501
10
-1044.5321716308595
20
1360.0000976562501
10
-1044.5321716308597
20
1260.0000976562501
10
-1058.2895309437406
20
1260.0000976562503
42
0.99999999999999989
10
-1062.5321716308597
20
1255.7574569691305
10
-1062.5321716308597
20
1210.0000976562503
10
-1362.4821716308597
20
1210.0000976562503
10
-1362.4821716308597
20
1255.757456969131
42
0.99999999999999989
10
-1366.7248123179788
20
1260.0000976562501
10
-1380.4821716308595
20
1260.0000976562501
10
-1380.4821716308595
20
1360.0000976562501
10
-1366.7248123179795
20
1360.0000976562501
42
0.99999999999999989
10
-1362.4821716308597
20
1364.242738343369
10
-1362.4821716308593
20
1475.7074569691308
42
0.99999999999999989
10
-1366.7248123179786
20
1479.9500976562501
10
-1380.4821716308595
20
1479.9500976562501
10
-1380.4821716308597
20
1579.9500976562501
10
-1366.7248123179788
20
1579.9500976562495
42
0.99999999999999989
10
-1362.4821716308597
20
1584.1927383433695
10
-1362.4821716308597
20
1629.9500976562501
10
-1346.7248123179793
20
1629.9500976562499
42
0.99999999999999989
10
-1342.4821716308597
20
1634.192738343369
10
-1342.4821716308597
20
1647.9500976562499
10
-1262.4821716308595
20
1647.9500976562504
10
-1262.4821716308597
20
1634.192738343369
42
0.99999999999999989
10
-1258.2395309437402
20
1629.9500976562501
10
-1166.774812317979
20
1629.9500976562501
42
0.99999999999999989
10
-1162.5321716308597
20
1634.1927383433695
10
-1162.5321716308597
20
1647.9500976562504
10
-1082.5321716308597
20
1647.9500976562504
10
-1082.5321716308597
20
1634.1927383433699
42
0.99999999999999989
10
-1078.2895309437406
20
1629.9500976562501
10
-1062.5321716308597
20
1629.9500976562501
10
-1062.5321716308597
20
1584.1927383433697
42
0.99999999999999989
10
-1058.2895309437406
20
1579.9500976562501
10
-1044.5321716308595
20
1579.9500976562501
10
-1044.5321716308597
20
1479.9500976562501
0
LWPOLYLINE
5
151
100
AcDbEntity
8
0
100
AcDbPolyline
90
24
70
1
43
0.0
10
-986.24264068711932
20
1572.9139709472654
42
0.99999999999999989
10
-982.00000000000023
20
1577.1566116343845
10
-982
20
1638.6713302601465
42
0.9999999925494194
10
-986.24264068711932
20
1642.9139709472656
10
-1000.0000000000001
20
1642.9139709472656
10
-1000.0000000000001
20
1732.9139709472656
10
-986.24264068711955
20
1732.9139709472659
42
0.99999999999999989
10
-982.00000000000023
20
1737.1566116343847
10
-982.00000000000034
20
1798.6713302601468
42
0.9999999925494194
10
-986.24264068711966
20
1802.9139709472659
10
-1000.0000000000001
20
1802.9139709472659
10
-1000.0000000000001
20
1892.9139709472659
10
-986.24264068711955
20
1892.9139709472659
42
0.99999999999999989
10
-982.00000000000023
20
1897.1566116343854
10
-982.00000000000023
20
1917.9139709472659
10
-930.00000000000023
20
1917.9139709472659
42
-0.41421356237310336
10
-910.00000000000023
20
1897.9139709472659
10
-910.00000000000023
20
1477.9139709472661
42
-0.41421356237310542
10
-930.00000000000045
20
1457.9139709472659
10
-982.00000000000023
20
1457.9139709472659
10
-982
20
1478.6713302601459
42
0.99999999999999989
10
-986.24264068711932
20
1482.9139709472654
10
-1000.0000000000001
20
1482.9139709472654
10
-1000.0000000000001
20
1572.9139709472654
0
CIRCLE
5
152
100
AcDbEntity
8
0
100
AcDbCircle
10
-935
20
1872.9139709472656
30
0
40
10.000000000000011
210
0
220
-0
230
1
0
CIRCLE
5
153
100
AcDbEntity
8
0
100
AcDbCircle
10
-935.00000000000023
20
1502.9139709472661
30
0
40
10.000000000000011
210
0
220
-0
230
1
0
LWPOLYLINE
5
154
100
AcDbEntity
8
0
100
AcDbPolyline
90
24
70
1
43
0.0
10
-1404.2395370472561
20
1377.4117431640625
42
0.99999999999999989
10
-1408.4821777343755
20
1373.1691024769432
10
-1408.4821777343755
20
1352.411743164063
10
-1460.4821777343752
20
1352.411743164063
42
-0.41421356237309503
10
-1480.4821777343752
20
1372.411743164063
10
-1480.4821777343755
20
1792.411743164063
42
-0.41421356237309087
10
-1460.4821777343755
20
1812.4117431640634
10
-1408.4821777343755
20
1812.4117431640634
10
-1408.4821777343755
20
1791.6543838511823
42
0.99999999999999989
10
-1404.2395370472561
20
1787.411743164063
10
-1390.4821777343752
20
1787.411743164063
10
-1390.4821777343752
20
1697.411743164063
10
-1404.2395370472561
20
1697.4117431640627
42
0.99999999999999989
10
-1408.4821777343755
20
1693.1691024769432
10
-1408.4821777343755
20
1631.654383851182
42
0.99999999999999989
10
-1404.2395370472559
20
1627.4117431640627
10
-1390.4821777343752
20
1627.4117431640627
10
-1390.4821777343755
20
1537.4117431640627
10
-1404.2395370472561
20
1537.4117431640627
42
0.99999999999999989
10
-1408.4821777343755
20
1533.1691024769434
10
-1408.4821777343755
20
1471.6543838511816
42
0.99999999999999989
10
-1404.2395370472559
20
1467.4117431640625
10
-1390.4821777343755
20
1467.4117431640625
10
-1390.4821777343755
20
1377.4117431640625
0
CIRCLE
5
155
100
AcDbEntity
8
0
100
AcDbCircle
10
-1455.4821777343755
20
1767.4117431640627
30
0
40
10.000000000000011
210
0
220
0
230
1
0
CIRCLE
5
156
100
AcDbEntity
8
0
100
AcDbCircle
10
-1455.4821777343752
20
1397.4117431640634
30
0
40
10.000000000000011
210
0
220
-0
230
1
0
ENDSEC
0
SECTION
2
OBJECTS
0
DICTIONARY
5
C
100
AcDbDictionary
3
ACAD_GROUP
350
D
3
ACAD_MLINESTYLE
350
17
0
DICTIONARY
5
D
100
AcDbDictionary
0
DICTIONARY
5
1A
330
C
100
AcDbDictionary
0
DICTIONARY
5
17
100
AcDbDictionary
0
ENDSEC
0
EOF
